  0
SECTION
  2
HEADER
  9
$ANGBASE
  50
0.0
  9
$ANGDIR
  70
  1
  9
$MEASUREMENT
  70
0
  0
ENDSEC
  0
SECTION
  2
TABLES
  0
TABLE
  2
LTYPE
  70
4
  0
LTYPE
  5
40F
  2
CONTINUOUS
  70
0
  3
Solid line
  72
65
  73
0
  40
0.0
  0
LTYPE
  5
410
  2
DASHDOT
 70
0
  3
Dash Dot ____ _ ____ _
 72
65
 73
4
 40
2.0
 49
1.25
 49
-0.25
 49
0.25
 49
-0.25
  0
LTYPE
  5
411
  2
DASHED
 70
0
  3
Dashed __ __ __ __ __
 72
65
 73
2
 40
0.75
 49
0.5
 49
-0.25
  0
LTYPE
  5
43B
  2
DOTTED
 70
0
  3
Dotted .  .  .  .
 72
65
 73
2
 40
0.2
 49
0.0
 49
-0.2
  0
ENDTAB
  0
TABLE
  2
STYLE
  70
4
  0
STYLE
  2
KICAD
  70
0
  40
0
  41
1
  42
1
  50
0
  71
0
  3
isocp.shx
  0
STYLE
  2
KICADB
  70
0
  40
0
  41
1
  42
1
  50
0
  71
0
  3
isocp.shx
  0
STYLE
  2
KICADI
  70
0
  40
0
  41
1
  42
1
  50
15
  71
0
  3
isocp.shx
  0
STYLE
  2
KICADBI
  70
0
  40
0
  41
1
  42
1
  50
15
  71
0
  3
isocp.shx
  0
ENDTAB
  0
TABLE
  2
LAYER
  70
30
  0
LAYER
  2
BLACK
  70
0
  62
7
  6
CONTINUOUS
  0
LAYER
  2
GRAY1
  70
0
  62
251
  6
CONTINUOUS
  0
LAYER
  2
GRAY2
  70
0
  62
8
  6
CONTINUOUS
  0
LAYER
  2
GRAY3
  70
0
  62
9
  6
CONTINUOUS
  0
LAYER
  2
WHITE
  70
0
  62
7
  6
CONTINUOUS
  0
LAYER
  2
LYELLOW
  70
0
  62
51
  6
CONTINUOUS
  0
LAYER
  2
BLUE1
  70
0
  62
178
  6
CONTINUOUS
  0
LAYER
  2
GREEN1
  70
0
  62
98
  6
CONTINUOUS
  0
LAYER
  2
CYAN1
  70
0
  62
138
  6
CONTINUOUS
  0
LAYER
  2
RED1
  70
0
  62
18
  6
CONTINUOUS
  0
LAYER
  2
MAGENTA1
  70
0
  62
228
  6
CONTINUOUS
  0
LAYER
  2
BROWN1
  70
0
  62
58
  6
CONTINUOUS
  0
LAYER
  2
BLUE2
  70
0
  62
5
  6
CONTINUOUS
  0
LAYER
  2
GREEN2
  70
0
  62
3
  6
CONTINUOUS
  0
LAYER
  2
CYAN2
  70
0
  62
4
  6
CONTINUOUS
  0
LAYER
  2
RED2
  70
0
  62
1
  6
CONTINUOUS
  0
LAYER
  2
MAGENTA2
  70
0
  62
6
  6
CONTINUOUS
  0
LAYER
  2
BROWN2
  70
0
  62
54
  6
CONTINUOUS
  0
LAYER
  2
BLUE3
  70
0
  62
171
  6
CONTINUOUS
  0
LAYER
  2
GREEN3
  70
0
  62
91
  6
CONTINUOUS
  0
LAYER
  2
CYAN3
  70
0
  62
131
  6
CONTINUOUS
  0
LAYER
  2
RED3
  70
0
  62
11
  6
CONTINUOUS
  0
LAYER
  2
MAGENTA3
  70
0
  62
221
  6
CONTINUOUS
  0
LAYER
  2
YELLOW3
  70
0
  62
2
  6
CONTINUOUS
  0
LAYER
  2
BLUE4
  70
0
  62
5
  6
CONTINUOUS
  0
LAYER
  2
GREEN4
  70
0
  62
3
  6
CONTINUOUS
  0
LAYER
  2
CYAN4
  70
0
  62
4
  6
CONTINUOUS
  0
LAYER
  2
RED4
  70
0
  62
1
  6
CONTINUOUS
  0
LAYER
  2
MAGENTA4
  70
0
  62
6
  6
CONTINUOUS
  0
LAYER
  2
YELLOW4
  70
0
  62
2
  6
CONTINUOUS
  0
ENDTAB
  0
ENDSEC
  0
SECTION
  2
ENTITIES
0
LINE
8
BLACK
6
CONTINUOUS
10
307.581
20
-118.935
11
307.577
21
-118.935
0
LINE
8
BLACK
6
CONTINUOUS
10
307.577
20
-118.935
11
307.573
21
-118.932
0
LINE
8
BLACK
6
CONTINUOUS
10
307.573
20
-118.932
11
307.569
21
-118.931
0
LINE
8
BLACK
6
CONTINUOUS
10
307.569
20
-118.931
11
307.565
21
-118.928
0
LINE
8
BLACK
6
CONTINUOUS
10
307.565
20
-118.928
11
307.561
21
-118.926
0
LINE
8
BLACK
6
CONTINUOUS
10
307.561
20
-118.926
11
307.559
21
-118.922
0
LINE
8
BLACK
6
CONTINUOUS
10
307.559
20
-118.922
11
307.555
21
-118.92
0
LINE
8
BLACK
6
CONTINUOUS
10
307.555
20
-118.92
11
307.553
21
-118.916
0
LINE
8
BLACK
6
CONTINUOUS
10
307.553
20
-118.916
11
307.55
21
-118.912
0
LINE
8
BLACK
6
CONTINUOUS
10
307.55
20
-118.912
11
307.549
21
-118.908
0
LINE
8
BLACK
6
CONTINUOUS
10
307.549
20
-118.908
11
307.546
21
-118.904
0
LINE
8
BLACK
6
CONTINUOUS
10
307.546
20
-118.904
11
307.546
21
-118.9
0
LINE
8
BLACK
6
CONTINUOUS
10
307.546
20
-118.9
11
307.544
21
-118.896
0
LINE
8
BLACK
6
CONTINUOUS
10
307.544
20
-118.896
11
307.544
21
-118.878
0
LINE
8
BLACK
6
CONTINUOUS
10
307.544
20
-118.878
11
307.544
21
-118.878
0
LINE
8
BLACK
6
CONTINUOUS
10
307.544
20
-118.878
11
307.544
21
-117.493
0
LINE
8
BLACK
6
CONTINUOUS
10
307.544
20
-117.493
11
307.497
21
-117.125
0
LINE
8
BLACK
6
CONTINUOUS
10
307.497
20
-117.125
11
307.301
21
-116.681
0
LINE
8
BLACK
6
CONTINUOUS
10
307.301
20
-116.681
11
306.973
21
-116.326
0
LINE
8
BLACK
6
CONTINUOUS
10
306.973
20
-116.326
11
306.547
21
-116.096
0
LINE
8
BLACK
6
CONTINUOUS
10
306.547
20
-116.096
11
306.069
21
-116.017
0
LINE
8
BLACK
6
CONTINUOUS
10
306.069
20
-116.017
11
305.705
21
-116.063
0
LINE
8
BLACK
6
CONTINUOUS
10
305.705
20
-116.063
11
305.261
21
-116.259
0
LINE
8
BLACK
6
CONTINUOUS
10
305.261
20
-116.259
11
304.906
21
-116.587
0
LINE
8
BLACK
6
CONTINUOUS
10
304.906
20
-116.587
11
304.676
21
-117.013
0
LINE
8
BLACK
6
CONTINUOUS
10
304.676
20
-117.013
11
304.596
21
-117.494
0
LINE
8
BLACK
6
CONTINUOUS
10
304.596
20
-117.494
11
304.596
21
-118.098
0
LINE
8
BLACK
6
CONTINUOUS
10
304.596
20
-118.098
11
304.595
21
-118.102
0
LINE
8
BLACK
6
CONTINUOUS
10
304.595
20
-118.102
11
304.518
21
-118.592
0
LINE
8
BLACK
6
CONTINUOUS
10
304.518
20
-118.592
11
304.518
21
-118.592
0
LINE
8
BLACK
6
CONTINUOUS
10
304.518
20
-118.592
11
304.514
21
-118.602
0
LINE
8
BLACK
6
CONTINUOUS
10
304.514
20
-118.602
11
304.513
21
-118.607
0
LINE
8
BLACK
6
CONTINUOUS
10
304.513
20
-118.607
11
304.513
21
-118.607
0
LINE
8
BLACK
6
CONTINUOUS
10
304.513
20
-118.607
11
304.287
21
-119.049
0
LINE
8
BLACK
6
CONTINUOUS
10
304.287
20
-119.049
11
304.278
21
-119.062
0
LINE
8
BLACK
6
CONTINUOUS
10
304.278
20
-119.062
11
304.278
21
-119.062
0
LINE
8
BLACK
6
CONTINUOUS
10
304.278
20
-119.062
11
303.927
21
-119.413
0
LINE
8
BLACK
6
CONTINUOUS
10
303.927
20
-119.413
11
303.927
21
-119.413
0
LINE
8
BLACK
6
CONTINUOUS
10
303.927
20
-119.413
11
303.922
21
-119.417
0
LINE
8
BLACK
6
CONTINUOUS
10
303.922
20
-119.417
11
303.914
21
-119.422
0
LINE
8
BLACK
6
CONTINUOUS
10
303.914
20
-119.422
11
303.914
21
-119.422
0
LINE
8
BLACK
6
CONTINUOUS
10
303.914
20
-119.422
11
303.472
21
-119.648
0
LINE
8
BLACK
6
CONTINUOUS
10
303.472
20
-119.648
11
303.457
21
-119.652
0
LINE
8
BLACK
6
CONTINUOUS
10
303.457
20
-119.652
11
303.457
21
-119.652
0
LINE
8
BLACK
6
CONTINUOUS
10
303.457
20
-119.652
11
302.966
21
-119.73
0
LINE
8
BLACK
6
CONTINUOUS
10
302.966
20
-119.73
11
302.951
21
-119.73
0
LINE
8
BLACK
6
CONTINUOUS
10
302.951
20
-119.73
11
302.945
21
-119.728
0
LINE
8
BLACK
6
CONTINUOUS
10
302.945
20
-119.728
11
302.944
21
-119.728
0
LINE
8
BLACK
6
CONTINUOUS
10
302.944
20
-119.728
11
302.931
21
-119.731
0
LINE
8
BLACK
6
CONTINUOUS
10
302.931
20
-119.731
11
194.877
21
-119.731
0
LINE
8
BLACK
6
CONTINUOUS
10
194.877
20
-119.731
11
194.873
21
-119.73
0
LINE
8
BLACK
6
CONTINUOUS
10
194.873
20
-119.73
11
194.383
21
-119.652
0
LINE
8
BLACK
6
CONTINUOUS
10
194.383
20
-119.652
11
194.383
21
-119.652
0
LINE
8
BLACK
6
CONTINUOUS
10
194.383
20
-119.652
11
194.372
21
-119.649
0
LINE
8
BLACK
6
CONTINUOUS
10
194.372
20
-119.649
11
194.368
21
-119.648
0
LINE
8
BLACK
6
CONTINUOUS
10
194.368
20
-119.648
11
194.368
21
-119.648
0
LINE
8
BLACK
6
CONTINUOUS
10
194.368
20
-119.648
11
193.926
21
-119.422
0
LINE
8
BLACK
6
CONTINUOUS
10
193.926
20
-119.422
11
193.926
21
-119.422
0
LINE
8
BLACK
6
CONTINUOUS
10
193.926
20
-119.422
11
193.922
21
-119.42
0
LINE
8
BLACK
6
CONTINUOUS
10
193.922
20
-119.42
11
193.913
21
-119.413
0
LINE
8
BLACK
6
CONTINUOUS
10
193.913
20
-119.413
11
193.913
21
-119.413
0
LINE
8
BLACK
6
CONTINUOUS
10
193.913
20
-119.413
11
193.562
21
-119.062
0
LINE
8
BLACK
6
CONTINUOUS
10
193.562
20
-119.062
11
193.562
21
-119.062
0
LINE
8
BLACK
6
CONTINUOUS
10
193.562
20
-119.062
11
193.558
21
-119.056
0
LINE
8
BLACK
6
CONTINUOUS
10
193.558
20
-119.056
11
193.553
21
-119.049
0
LINE
8
BLACK
6
CONTINUOUS
10
193.553
20
-119.049
11
193.553
21
-119.049
0
LINE
8
BLACK
6
CONTINUOUS
10
193.553
20
-119.049
11
193.327
21
-118.607
0
LINE
8
BLACK
6
CONTINUOUS
10
193.327
20
-118.607
11
193.322
21
-118.592
0
LINE
8
BLACK
6
CONTINUOUS
10
193.322
20
-118.592
11
193.322
21
-118.592
0
LINE
8
BLACK
6
CONTINUOUS
10
193.322
20
-118.592
11
193.245
21
-118.101
0
LINE
8
BLACK
6
CONTINUOUS
10
193.245
20
-118.101
11
193.244
21
-118.098
0
LINE
8
BLACK
6
CONTINUOUS
10
193.244
20
-118.098
11
193.244
21
-117.493
0
LINE
8
BLACK
6
CONTINUOUS
10
193.244
20
-117.493
11
193.197
21
-117.125
0
LINE
8
BLACK
6
CONTINUOUS
10
193.197
20
-117.125
11
193.001
21
-116.681
0
LINE
8
BLACK
6
CONTINUOUS
10
193.001
20
-116.681
11
192.673
21
-116.326
0
LINE
8
BLACK
6
CONTINUOUS
10
192.673
20
-116.326
11
192.247
21
-116.096
0
LINE
8
BLACK
6
CONTINUOUS
10
192.247
20
-116.096
11
191.769
21
-116.017
0
LINE
8
BLACK
6
CONTINUOUS
10
191.769
20
-116.017
11
191.405
21
-116.063
0
LINE
8
BLACK
6
CONTINUOUS
10
191.405
20
-116.063
11
190.961
21
-116.259
0
LINE
8
BLACK
6
CONTINUOUS
10
190.961
20
-116.259
11
190.606
21
-116.587
0
LINE
8
BLACK
6
CONTINUOUS
10
190.606
20
-116.587
11
190.376
21
-117.013
0
LINE
8
BLACK
6
CONTINUOUS
10
190.376
20
-117.013
11
190.296
21
-117.494
0
LINE
8
BLACK
6
CONTINUOUS
10
190.296
20
-117.494
11
190.296
21
-118.896
0
LINE
8
BLACK
6
CONTINUOUS
10
190.296
20
-118.896
11
190.294
21
-118.9
0
LINE
8
BLACK
6
CONTINUOUS
10
190.294
20
-118.9
11
190.294
21
-118.904
0
LINE
8
BLACK
6
CONTINUOUS
10
190.294
20
-118.904
11
190.291
21
-118.908
0
LINE
8
BLACK
6
CONTINUOUS
10
190.291
20
-118.908
11
190.29
21
-118.912
0
LINE
8
BLACK
6
CONTINUOUS
10
190.29
20
-118.912
11
190.287
21
-118.916
0
LINE
8
BLACK
6
CONTINUOUS
10
190.287
20
-118.916
11
190.285
21
-118.92
0
LINE
8
BLACK
6
CONTINUOUS
10
190.285
20
-118.92
11
190.281
21
-118.922
0
LINE
8
BLACK
6
CONTINUOUS
10
190.281
20
-118.922
11
190.279
21
-118.926
0
LINE
8
BLACK
6
CONTINUOUS
10
190.279
20
-118.926
11
190.275
21
-118.928
0
LINE
8
BLACK
6
CONTINUOUS
10
190.275
20
-118.928
11
190.271
21
-118.931
0
LINE
8
BLACK
6
CONTINUOUS
10
190.271
20
-118.931
11
190.267
21
-118.932
0
LINE
8
BLACK
6
CONTINUOUS
10
190.267
20
-118.932
11
190.263
21
-118.935
0
LINE
8
BLACK
6
CONTINUOUS
10
190.263
20
-118.935
11
190.259
21
-118.935
0
LINE
8
BLACK
6
CONTINUOUS
10
190.259
20
-118.935
11
190.255
21
-118.937
0
LINE
8
BLACK
6
CONTINUOUS
10
190.255
20
-118.937
11
188.464
21
-118.937
0
LINE
8
BLACK
6
CONTINUOUS
10
188.464
20
-118.937
11
188.451
21
-118.935
0
LINE
8
BLACK
6
CONTINUOUS
10
188.451
20
-118.935
11
188.068
21
-118.867
0
LINE
8
BLACK
6
CONTINUOUS
10
188.068
20
-118.867
11
188.068
21
-118.867
0
LINE
8
BLACK
6
CONTINUOUS
10
188.068
20
-118.867
11
188.06
21
-118.864
0
LINE
8
BLACK
6
CONTINUOUS
10
188.06
20
-118.864
11
188.052
21
-118.861
0
LINE
8
BLACK
6
CONTINUOUS
10
188.052
20
-118.861
11
188.052
21
-118.861
0
LINE
8
BLACK
6
CONTINUOUS
10
188.052
20
-118.861
11
187.708
21
-118.663
0
LINE
8
BLACK
6
CONTINUOUS
10
187.708
20
-118.663
11
187.695
21
-118.652
0
LINE
8
BLACK
6
CONTINUOUS
10
187.695
20
-118.652
11
187.695
21
-118.652
0
LINE
8
BLACK
6
CONTINUOUS
10
187.695
20
-118.652
11
187.44
21
-118.348
0
LINE
8
BLACK
6
CONTINUOUS
10
187.44
20
-118.348
11
187.44
21
-118.348
0
LINE
8
BLACK
6
CONTINUOUS
10
187.44
20
-118.348
11
187.437
21
-118.342
0
LINE
8
BLACK
6
CONTINUOUS
10
187.437
20
-118.342
11
187.431
21
-118.333
0
LINE
8
BLACK
6
CONTINUOUS
10
187.431
20
-118.333
11
187.431
21
-118.333
0
LINE
8
BLACK
6
CONTINUOUS
10
187.431
20
-118.333
11
187.295
21
-117.96
0
LINE
8
BLACK
6
CONTINUOUS
10
187.295
20
-117.96
11
187.294
21
-117.953
0
LINE
8
BLACK
6
CONTINUOUS
10
187.294
20
-117.953
11
187.293
21
-117.947
0
LINE
8
BLACK
6
CONTINUOUS
10
187.293
20
-117.947
11
187.275
21
-117.748
0
LINE
8
BLACK
6
CONTINUOUS
10
187.275
20
-117.748
11
187.258
21
-117.556
0
LINE
8
BLACK
6
CONTINUOUS
10
187.258
20
-117.556
11
187.128
21
-117.198
0
LINE
8
BLACK
6
CONTINUOUS
10
187.128
20
-117.198
11
186.884
21
-116.907
0
LINE
8
BLACK
6
CONTINUOUS
10
186.884
20
-116.907
11
186.556
21
-116.718
0
LINE
8
BLACK
6
CONTINUOUS
10
186.556
20
-116.718
11
186.178
21
-116.651
0
LINE
8
BLACK
6
CONTINUOUS
10
186.178
20
-116.651
11
186.173
21
-116.651
0
LINE
8
BLACK
6
CONTINUOUS
10
186.173
20
-116.651
11
186.157
21
-116.645
0
LINE
8
BLACK
6
CONTINUOUS
10
186.157
20
-116.645
11
186.143
21
-116.634
0
LINE
8
BLACK
6
CONTINUOUS
10
186.143
20
-116.634
11
186.134
21
-116.618
0
LINE
8
BLACK
6
CONTINUOUS
10
186.134
20
-116.618
11
186.132
21
-116.605
0
LINE
8
BLACK
6
CONTINUOUS
10
186.132
20
-116.605
11
186.132
21
-116.601
0
LINE
8
BLACK
6
CONTINUOUS
10
186.132
20
-116.601
11
186.132
21
-116.601
0
LINE
8
BLACK
6
CONTINUOUS
10
186.132
20
-116.601
11
186.132
21
-116.601
0
LINE
8
BLACK
6
CONTINUOUS
10
186.132
20
-116.601
11
186.132
21
-111.771
0
LINE
8
BLACK
6
CONTINUOUS
10
186.132
20
-111.771
11
186.134
21
-111.758
0
LINE
8
BLACK
6
CONTINUOUS
10
186.134
20
-111.758
11
186.143
21
-111.742
0
LINE
8
BLACK
6
CONTINUOUS
10
186.143
20
-111.742
11
186.157
21
-111.731
0
LINE
8
BLACK
6
CONTINUOUS
10
186.157
20
-111.731
11
186.173
21
-111.725
0
LINE
8
BLACK
6
CONTINUOUS
10
186.173
20
-111.725
11
186.18
21
-111.725
0
LINE
8
BLACK
6
CONTINUOUS
10
186.18
20
-111.725
11
186.392
21
-111.706
0
LINE
8
BLACK
6
CONTINUOUS
10
186.392
20
-111.706
11
186.792
21
-111.561
0
LINE
8
BLACK
6
CONTINUOUS
10
186.792
20
-111.561
11
187.116
21
-111.289
0
LINE
8
BLACK
6
CONTINUOUS
10
187.116
20
-111.289
11
187.328
21
-110.922
0
LINE
8
BLACK
6
CONTINUOUS
10
187.328
20
-110.922
11
187.402
21
-110.503
0
LINE
8
BLACK
6
CONTINUOUS
10
187.402
20
-110.503
11
187.383
21
-110.295
0
LINE
8
BLACK
6
CONTINUOUS
10
187.383
20
-110.295
11
187.238
21
-109.895
0
LINE
8
BLACK
6
CONTINUOUS
10
187.238
20
-109.895
11
186.966
21
-109.571
0
LINE
8
BLACK
6
CONTINUOUS
10
186.966
20
-109.571
11
186.599
21
-109.359
0
LINE
8
BLACK
6
CONTINUOUS
10
186.599
20
-109.359
11
186.178
21
-109.285
0
LINE
8
BLACK
6
CONTINUOUS
10
186.178
20
-109.285
11
186.173
21
-109.285
0
LINE
8
BLACK
6
CONTINUOUS
10
186.173
20
-109.285
11
186.157
21
-109.279
0
LINE
8
BLACK
6
CONTINUOUS
10
186.157
20
-109.279
11
186.143
21
-109.268
0
LINE
8
BLACK
6
CONTINUOUS
10
186.143
20
-109.268
11
186.134
21
-109.252
0
LINE
8
BLACK
6
CONTINUOUS
10
186.134
20
-109.252
11
186.132
21
-109.239
0
LINE
8
BLACK
6
CONTINUOUS
10
186.132
20
-109.239
11
186.132
21
-104.405
0
LINE
8
BLACK
6
CONTINUOUS
10
186.132
20
-104.405
11
186.133
21
-104.4
0
LINE
8
BLACK
6
CONTINUOUS
10
186.133
20
-104.4
11
186.133
21
-104.4
0
LINE
8
BLACK
6
CONTINUOUS
10
186.133
20
-104.4
11
186.186
21
-104.096
0
LINE
8
BLACK
6
CONTINUOUS
10
186.186
20
-104.096
11
186.186
21
-104.096
0
LINE
8
BLACK
6
CONTINUOUS
10
186.186
20
-104.096
11
186.189
21
-104.089
0
LINE
8
BLACK
6
CONTINUOUS
10
186.189
20
-104.089
11
186.192
21
-104.08
0
LINE
8
BLACK
6
CONTINUOUS
10
186.192
20
-104.08
11
186.192
21
-104.08
0
LINE
8
BLACK
6
CONTINUOUS
10
186.192
20
-104.08
11
186.347
21
-103.813
0
LINE
8
BLACK
6
CONTINUOUS
10
186.347
20
-103.813
11
186.347
21
-103.813
0
LINE
8
BLACK
6
CONTINUOUS
10
186.347
20
-103.813
11
186.358
21
-103.799
0
LINE
8
BLACK
6
CONTINUOUS
10
186.358
20
-103.799
11
186.358
21
-103.799
0
LINE
8
BLACK
6
CONTINUOUS
10
186.358
20
-103.799
11
186.594
21
-103.601
0
LINE
8
BLACK
6
CONTINUOUS
10
186.594
20
-103.601
11
186.594
21
-103.601
0
LINE
8
BLACK
6
CONTINUOUS
10
186.594
20
-103.601
11
186.609
21
-103.592
0
LINE
8
BLACK
6
CONTINUOUS
10
186.609
20
-103.592
11
186.9
21
-103.487
0
LINE
8
BLACK
6
CONTINUOUS
10
186.9
20
-103.487
11
186.906
21
-103.485
0
LINE
8
BLACK
6
CONTINUOUS
10
186.906
20
-103.485
11
186.912
21
-103.484
0
LINE
8
BLACK
6
CONTINUOUS
10
186.912
20
-103.484
11
187.067
21
-103.47
0
LINE
8
BLACK
6
CONTINUOUS
10
187.067
20
-103.47
11
187.192
21
-103.459
0
LINE
8
BLACK
6
CONTINUOUS
10
187.192
20
-103.459
11
187.427
21
-103.374
0
LINE
8
BLACK
6
CONTINUOUS
10
187.427
20
-103.374
11
187.616
21
-103.215
0
LINE
8
BLACK
6
CONTINUOUS
10
187.616
20
-103.215
11
187.739
21
-103.001
0
LINE
8
BLACK
6
CONTINUOUS
10
187.739
20
-103.001
11
187.783
21
-102.754
0
LINE
8
BLACK
6
CONTINUOUS
10
187.783
20
-102.754
11
187.783
21
-100.849
0
LINE
8
BLACK
6
CONTINUOUS
10
187.783
20
-100.849
11
187.784
21
-100.846
0
LINE
8
BLACK
6
CONTINUOUS
10
187.784
20
-100.846
11
187.864
21
-100.181
0
LINE
8
BLACK
6
CONTINUOUS
10
187.864
20
-100.181
11
187.864
21
-100.18
0
LINE
8
BLACK
6
CONTINUOUS
10
187.864
20
-100.18
11
187.865
21
-100.174
0
LINE
8
BLACK
6
CONTINUOUS
10
187.865
20
-100.174
11
187.867
21
-100.169
0
LINE
8
BLACK
6
CONTINUOUS
10
187.867
20
-100.169
11
188.104
21
-99.5409
0
LINE
8
BLACK
6
CONTINUOUS
10
188.104
20
-99.5409
11
188.104
21
-99.5409
0
LINE
8
BLACK
6
CONTINUOUS
10
188.104
20
-99.5409
11
188.104
21
-99.5409
0
LINE
8
BLACK
6
CONTINUOUS
10
188.104
20
-99.5409
11
188.104
21
-99.5404
0
LINE
8
BLACK
6
CONTINUOUS
10
188.104
20
-99.5404
11
188.107
21
-99.5354
0
LINE
8
BLACK
6
CONTINUOUS
10
188.107
20
-99.5354
11
188.11
21
-99.5302
0
LINE
8
BLACK
6
CONTINUOUS
10
188.11
20
-99.5302
11
188.49
21
-98.977
0
LINE
8
BLACK
6
CONTINUOUS
10
188.49
20
-98.977
11
188.49
21
-98.9765
0
LINE
8
BLACK
6
CONTINUOUS
10
188.49
20
-98.9765
11
188.494
21
-98.9723
0
LINE
8
BLACK
6
CONTINUOUS
10
188.494
20
-98.9723
11
188.498
21
-98.968
0
LINE
8
BLACK
6
CONTINUOUS
10
188.498
20
-98.968
11
188.999
21
-98.5214
0
LINE
8
BLACK
6
CONTINUOUS
10
188.999
20
-98.5214
11
189
21
-98.521
0
LINE
8
BLACK
6
CONTINUOUS
10
189
20
-98.521
11
189.004
21
-98.5178
0
LINE
8
BLACK
6
CONTINUOUS
10
189.004
20
-98.5178
11
189.009
21
-98.5145
0
LINE
8
BLACK
6
CONTINUOUS
10
189.009
20
-98.5145
11
189.602
21
-98.2004
0
LINE
8
BLACK
6
CONTINUOUS
10
189.602
20
-98.2004
11
189.602
21
-98.2004
0
LINE
8
BLACK
6
CONTINUOUS
10
189.602
20
-98.2004
11
189.602
21
-98.2004
0
LINE
8
BLACK
6
CONTINUOUS
10
189.602
20
-98.2004
11
189.603
21
-98.2001
0
LINE
8
BLACK
6
CONTINUOUS
10
189.603
20
-98.2001
11
189.608
21
-98.1982
0
LINE
8
BLACK
6
CONTINUOUS
10
189.608
20
-98.1982
11
189.614
21
-98.1961
0
LINE
8
BLACK
6
CONTINUOUS
10
189.614
20
-98.1961
11
190.265
21
-98.0325
0
LINE
8
BLACK
6
CONTINUOUS
10
190.265
20
-98.0325
11
190.265
21
-98.0324
0
LINE
8
BLACK
6
CONTINUOUS
10
190.265
20
-98.0324
11
190.269
21
-98.0319
0
LINE
8
BLACK
6
CONTINUOUS
10
190.269
20
-98.0319
11
190.274
21
-98.0311
0
LINE
8
BLACK
6
CONTINUOUS
10
190.274
20
-98.0311
11
190.621
21
-98.0093
0
LINE
8
BLACK
6
CONTINUOUS
10
190.621
20
-98.0093
11
190.623
21
-98.009
0
LINE
8
BLACK
6
CONTINUOUS
10
190.623
20
-98.009
11
193.552
21
-98.009
0
LINE
8
BLACK
6
CONTINUOUS
10
193.552
20
-98.009
11
193.556
21
-98.0096
0
LINE
8
BLACK
6
CONTINUOUS
10
193.556
20
-98.0096
11
194.135
21
-98.089
0
LINE
8
BLACK
6
CONTINUOUS
10
194.135
20
-98.089
11
194.143
21
-98.0905
0
LINE
8
BLACK
6
CONTINUOUS
10
194.143
20
-98.0905
11
194.145
21
-98.0918
0
LINE
8
BLACK
6
CONTINUOUS
10
194.145
20
-98.0918
11
194.148
21
-98.0926
0
LINE
8
BLACK
6
CONTINUOUS
10
194.148
20
-98.0926
11
194.686
21
-98.3254
0
LINE
8
BLACK
6
CONTINUOUS
10
194.686
20
-98.3254
11
194.693
21
-98.3288
0
LINE
8
BLACK
6
CONTINUOUS
10
194.693
20
-98.3288
11
194.695
21
-98.3308
0
LINE
8
BLACK
6
CONTINUOUS
10
194.695
20
-98.3308
11
194.698
21
-98.3324
0
LINE
8
BLACK
6
CONTINUOUS
10
194.698
20
-98.3324
11
195.153
21
-98.7012
0
LINE
8
BLACK
6
CONTINUOUS
10
195.153
20
-98.7012
11
195.159
21
-98.7062
0
LINE
8
BLACK
6
CONTINUOUS
10
195.159
20
-98.7062
11
195.16
21
-98.7088
0
LINE
8
BLACK
6
CONTINUOUS
10
195.16
20
-98.7088
11
195.163
21
-98.7111
0
LINE
8
BLACK
6
CONTINUOUS
10
195.163
20
-98.7111
11
195.502
21
-99.1888
0
LINE
8
BLACK
6
CONTINUOUS
10
195.502
20
-99.1888
11
195.506
21
-99.195
0
LINE
8
BLACK
6
CONTINUOUS
10
195.506
20
-99.195
11
195.507
21
-99.198
0
LINE
8
BLACK
6
CONTINUOUS
10
195.507
20
-99.198
11
195.508
21
-99.2008
0
LINE
8
BLACK
6
CONTINUOUS
10
195.508
20
-99.2008
11
195.707
21
-99.7522
0
LINE
8
BLACK
6
CONTINUOUS
10
195.707
20
-99.7522
11
195.709
21
-99.7592
0
LINE
8
BLACK
6
CONTINUOUS
10
195.709
20
-99.7592
11
195.709
21
-99.7616
0
LINE
8
BLACK
6
CONTINUOUS
10
195.709
20
-99.7616
11
195.71
21
-99.7639
0
LINE
8
BLACK
6
CONTINUOUS
10
195.71
20
-99.7639
11
195.757
21
-100.213
0
LINE
8
BLACK
6
CONTINUOUS
10
195.757
20
-100.213
11
195.757
21
-100.213
0
LINE
8
BLACK
6
CONTINUOUS
10
195.757
20
-100.213
11
195.757
21
-100.214
0
LINE
8
BLACK
6
CONTINUOUS
10
195.757
20
-100.214
11
195.768
21
-100.339
0
LINE
8
BLACK
6
CONTINUOUS
10
195.768
20
-100.339
11
195.853
21
-100.574
0
LINE
8
BLACK
6
CONTINUOUS
10
195.853
20
-100.574
11
196.012
21
-100.763
0
LINE
8
BLACK
6
CONTINUOUS
10
196.012
20
-100.763
11
196.226
21
-100.886
0
LINE
8
BLACK
6
CONTINUOUS
10
196.226
20
-100.886
11
196.473
21
-100.93
0
LINE
8
BLACK
6
CONTINUOUS
10
196.473
20
-100.93
11
301.369
21
-100.93
0
LINE
8
BLACK
6
CONTINUOUS
10
301.369
20
-100.93
11
301.492
21
-100.919
0
LINE
8
BLACK
6
CONTINUOUS
10
301.492
20
-100.919
11
301.727
21
-100.834
0
LINE
8
BLACK
6
CONTINUOUS
10
301.727
20
-100.834
11
301.916
21
-100.675
0
LINE
8
BLACK
6
CONTINUOUS
10
301.916
20
-100.675
11
302.039
21
-100.461
0
LINE
8
BLACK
6
CONTINUOUS
10
302.039
20
-100.461
11
302.084
21
-100.21
0
LINE
8
BLACK
6
CONTINUOUS
10
302.084
20
-100.21
11
302.163
21
-99.6306
0
LINE
8
BLACK
6
CONTINUOUS
10
302.163
20
-99.6306
11
302.165
21
-99.6235
0
LINE
8
BLACK
6
CONTINUOUS
10
302.165
20
-99.6235
11
302.166
21
-99.6206
0
LINE
8
BLACK
6
CONTINUOUS
10
302.166
20
-99.6206
11
302.167
21
-99.6175
0
LINE
8
BLACK
6
CONTINUOUS
10
302.167
20
-99.6175
11
302.399
21
-99.0797
0
LINE
8
BLACK
6
CONTINUOUS
10
302.399
20
-99.0797
11
302.403
21
-99.0732
0
LINE
8
BLACK
6
CONTINUOUS
10
302.403
20
-99.0732
11
302.405
21
-99.0708
0
LINE
8
BLACK
6
CONTINUOUS
10
302.405
20
-99.0708
11
302.406
21
-99.0681
0
LINE
8
BLACK
6
CONTINUOUS
10
302.406
20
-99.0681
11
302.775
21
-98.6127
0
LINE
8
BLACK
6
CONTINUOUS
10
302.775
20
-98.6127
11
302.78
21
-98.6074
0
LINE
8
BLACK
6
CONTINUOUS
10
302.78
20
-98.6074
11
302.783
21
-98.6056
0
LINE
8
BLACK
6
CONTINUOUS
10
302.783
20
-98.6056
11
302.785
21
-98.6034
0
LINE
8
BLACK
6
CONTINUOUS
10
302.785
20
-98.6034
11
303.263
21
-98.2639
0
LINE
8
BLACK
6
CONTINUOUS
10
303.263
20
-98.2639
11
303.269
21
-98.2601
0
LINE
8
BLACK
6
CONTINUOUS
10
303.269
20
-98.2601
11
303.272
21
-98.2591
0
LINE
8
BLACK
6
CONTINUOUS
10
303.272
20
-98.2591
11
303.275
21
-98.2576
0
LINE
8
BLACK
6
CONTINUOUS
10
303.275
20
-98.2576
11
303.826
21
-98.0591
0
LINE
8
BLACK
6
CONTINUOUS
10
303.826
20
-98.0591
11
303.833
21
-98.0572
0
LINE
8
BLACK
6
CONTINUOUS
10
303.833
20
-98.0572
11
303.836
21
-98.057
0
LINE
8
BLACK
6
CONTINUOUS
10
303.836
20
-98.057
11
303.838
21
-98.0565
0
LINE
8
BLACK
6
CONTINUOUS
10
303.838
20
-98.0565
11
304.285
21
-98.0095
0
LINE
8
BLACK
6
CONTINUOUS
10
304.285
20
-98.0095
11
304.288
21
-98.009
0
LINE
8
BLACK
6
CONTINUOUS
10
304.288
20
-98.009
11
307.217
21
-98.009
0
LINE
8
BLACK
6
CONTINUOUS
10
307.217
20
-98.009
11
307.22
21
-98.0095
0
LINE
8
BLACK
6
CONTINUOUS
10
307.22
20
-98.0095
11
307.885
21
-98.09
0
LINE
8
BLACK
6
CONTINUOUS
10
307.885
20
-98.09
11
307.886
21
-98.0901
0
LINE
8
BLACK
6
CONTINUOUS
10
307.886
20
-98.0901
11
307.892
21
-98.0915
0
LINE
8
BLACK
6
CONTINUOUS
10
307.892
20
-98.0915
11
307.897
21
-98.0929
0
LINE
8
BLACK
6
CONTINUOUS
10
307.897
20
-98.0929
11
308.525
21
-98.3302
0
LINE
8
BLACK
6
CONTINUOUS
10
308.525
20
-98.3302
11
308.525
21
-98.3302
0
LINE
8
BLACK
6
CONTINUOUS
10
308.525
20
-98.3302
11
308.525
21
-98.3302
0
LINE
8
BLACK
6
CONTINUOUS
10
308.525
20
-98.3302
11
308.526
21
-98.3304
0
LINE
8
BLACK
6
CONTINUOUS
10
308.526
20
-98.3304
11
308.531
21
-98.3331
0
LINE
8
BLACK
6
CONTINUOUS
10
308.531
20
-98.3331
11
308.536
21
-98.3357
0
LINE
8
BLACK
6
CONTINUOUS
10
308.536
20
-98.3357
11
309.089
21
-98.716
0
LINE
8
BLACK
6
CONTINUOUS
10
309.089
20
-98.716
11
309.089
21
-98.7163
0
LINE
8
BLACK
6
CONTINUOUS
10
309.089
20
-98.7163
11
309.094
21
-98.7201
0
LINE
8
BLACK
6
CONTINUOUS
10
309.094
20
-98.7201
11
309.098
21
-98.7239
0
LINE
8
BLACK
6
CONTINUOUS
10
309.098
20
-98.7239
11
309.545
21
-99.2252
0
LINE
8
BLACK
6
CONTINUOUS
10
309.545
20
-99.2252
11
309.545
21
-99.2256
0
LINE
8
BLACK
6
CONTINUOUS
10
309.545
20
-99.2256
11
309.548
21
-99.2303
0
LINE
8
BLACK
6
CONTINUOUS
10
309.548
20
-99.2303
11
309.551
21
-99.235
0
LINE
8
BLACK
6
CONTINUOUS
10
309.551
20
-99.235
11
309.866
21
-99.8283
0
LINE
8
BLACK
6
CONTINUOUS
10
309.866
20
-99.8283
11
309.866
21
-99.8283
0
LINE
8
BLACK
6
CONTINUOUS
10
309.866
20
-99.8283
11
309.866
21
-99.8283
0
LINE
8
BLACK
6
CONTINUOUS
10
309.866
20
-99.8283
11
309.866
21
-99.8288
0
LINE
8
BLACK
6
CONTINUOUS
10
309.866
20
-99.8288
11
309.868
21
-99.8341
0
LINE
8
BLACK
6
CONTINUOUS
10
309.868
20
-99.8341
11
309.87
21
-99.8395
0
LINE
8
BLACK
6
CONTINUOUS
10
309.87
20
-99.8395
11
310.033
21
-100.491
0
LINE
8
BLACK
6
CONTINUOUS
10
310.033
20
-100.491
11
310.034
21
-100.491
0
LINE
8
BLACK
6
CONTINUOUS
10
310.034
20
-100.491
11
310.034
21
-100.495
0
LINE
8
BLACK
6
CONTINUOUS
10
310.034
20
-100.495
11
310.035
21
-100.5
0
LINE
8
BLACK
6
CONTINUOUS
10
310.035
20
-100.5
11
310.057
21
-100.847
0
LINE
8
BLACK
6
CONTINUOUS
10
310.057
20
-100.847
11
310.057
21
-100.849
0
LINE
8
BLACK
6
CONTINUOUS
10
310.057
20
-100.849
11
310.057
21
-102.756
0
LINE
8
BLACK
6
CONTINUOUS
10
310.057
20
-102.756
11
310.068
21
-102.879
0
LINE
8
BLACK
6
CONTINUOUS
10
310.068
20
-102.879
11
310.153
21
-103.114
0
LINE
8
BLACK
6
CONTINUOUS
10
310.153
20
-103.114
11
310.312
21
-103.303
0
LINE
8
BLACK
6
CONTINUOUS
10
310.312
20
-103.303
11
310.526
21
-103.426
0
LINE
8
BLACK
6
CONTINUOUS
10
310.526
20
-103.426
11
310.778
21
-103.471
0
LINE
8
BLACK
6
CONTINUOUS
10
310.778
20
-103.471
11
311.082
21
-103.524
0
LINE
8
BLACK
6
CONTINUOUS
10
311.082
20
-103.524
11
311.082
21
-103.524
0
LINE
8
BLACK
6
CONTINUOUS
10
311.082
20
-103.524
11
311.089
21
-103.527
0
LINE
8
BLACK
6
CONTINUOUS
10
311.089
20
-103.527
11
311.098
21
-103.53
0
LINE
8
BLACK
6
CONTINUOUS
10
311.098
20
-103.53
11
311.098
21
-103.53
0
LINE
8
BLACK
6
CONTINUOUS
10
311.098
20
-103.53
11
311.365
21
-103.685
0
LINE
8
BLACK
6
CONTINUOUS
10
311.365
20
-103.685
11
311.365
21
-103.685
0
LINE
8
BLACK
6
CONTINUOUS
10
311.365
20
-103.685
11
311.372
21
-103.69
0
LINE
8
BLACK
6
CONTINUOUS
10
311.372
20
-103.69
11
311.379
21
-103.696
0
LINE
8
BLACK
6
CONTINUOUS
10
311.379
20
-103.696
11
311.379
21
-103.696
0
LINE
8
BLACK
6
CONTINUOUS
10
311.379
20
-103.696
11
311.577
21
-103.932
0
LINE
8
BLACK
6
CONTINUOUS
10
311.577
20
-103.932
11
311.577
21
-103.932
0
LINE
8
BLACK
6
CONTINUOUS
10
311.577
20
-103.932
11
311.586
21
-103.947
0
LINE
8
BLACK
6
CONTINUOUS
10
311.586
20
-103.947
11
311.691
21
-104.238
0
LINE
8
BLACK
6
CONTINUOUS
10
311.691
20
-104.238
11
311.693
21
-104.244
0
LINE
8
BLACK
6
CONTINUOUS
10
311.693
20
-104.244
11
311.694
21
-104.25
0
LINE
8
BLACK
6
CONTINUOUS
10
311.694
20
-104.25
11
311.708
21
-104.402
0
LINE
8
BLACK
6
CONTINUOUS
10
311.708
20
-104.402
11
311.708
21
-104.405
0
LINE
8
BLACK
6
CONTINUOUS
10
311.708
20
-104.405
11
311.708
21
-109.239
0
LINE
8
BLACK
6
CONTINUOUS
10
311.708
20
-109.239
11
311.706
21
-109.252
0
LINE
8
BLACK
6
CONTINUOUS
10
311.706
20
-109.252
11
311.697
21
-109.268
0
LINE
8
BLACK
6
CONTINUOUS
10
311.697
20
-109.268
11
311.683
21
-109.279
0
LINE
8
BLACK
6
CONTINUOUS
10
311.683
20
-109.279
11
311.667
21
-109.285
0
LINE
8
BLACK
6
CONTINUOUS
10
311.667
20
-109.285
11
311.66
21
-109.285
0
LINE
8
BLACK
6
CONTINUOUS
10
311.66
20
-109.285
11
311.448
21
-109.304
0
LINE
8
BLACK
6
CONTINUOUS
10
311.448
20
-109.304
11
311.048
21
-109.449
0
LINE
8
BLACK
6
CONTINUOUS
10
311.048
20
-109.449
11
310.724
21
-109.721
0
LINE
8
BLACK
6
CONTINUOUS
10
310.724
20
-109.721
11
310.512
21
-110.088
0
LINE
8
BLACK
6
CONTINUOUS
10
310.512
20
-110.088
11
310.438
21
-110.507
0
LINE
8
BLACK
6
CONTINUOUS
10
310.438
20
-110.507
11
310.457
21
-110.715
0
LINE
8
BLACK
6
CONTINUOUS
10
310.457
20
-110.715
11
310.602
21
-111.115
0
LINE
8
BLACK
6
CONTINUOUS
10
310.602
20
-111.115
11
310.874
21
-111.439
0
LINE
8
BLACK
6
CONTINUOUS
10
310.874
20
-111.439
11
311.241
21
-111.651
0
LINE
8
BLACK
6
CONTINUOUS
10
311.241
20
-111.651
11
311.662
21
-111.725
0
LINE
8
BLACK
6
CONTINUOUS
10
311.662
20
-111.725
11
311.667
21
-111.725
0
LINE
8
BLACK
6
CONTINUOUS
10
311.667
20
-111.725
11
311.683
21
-111.731
0
LINE
8
BLACK
6
CONTINUOUS
10
311.683
20
-111.731
11
311.697
21
-111.742
0
LINE
8
BLACK
6
CONTINUOUS
10
311.697
20
-111.742
11
311.706
21
-111.758
0
LINE
8
BLACK
6
CONTINUOUS
10
311.706
20
-111.758
11
311.708
21
-111.771
0
LINE
8
BLACK
6
CONTINUOUS
10
311.708
20
-111.771
11
311.708
21
-116.605
0
LINE
8
BLACK
6
CONTINUOUS
10
311.708
20
-116.605
11
311.706
21
-116.618
0
LINE
8
BLACK
6
CONTINUOUS
10
311.706
20
-116.618
11
311.697
21
-116.634
0
LINE
8
BLACK
6
CONTINUOUS
10
311.697
20
-116.634
11
311.683
21
-116.645
0
LINE
8
BLACK
6
CONTINUOUS
10
311.683
20
-116.645
11
311.667
21
-116.651
0
LINE
8
BLACK
6
CONTINUOUS
10
311.667
20
-116.651
11
311.66
21
-116.651
0
LINE
8
BLACK
6
CONTINUOUS
10
311.66
20
-116.651
11
311.47
21
-116.668
0
LINE
8
BLACK
6
CONTINUOUS
10
311.47
20
-116.668
11
311.112
21
-116.798
0
LINE
8
BLACK
6
CONTINUOUS
10
311.112
20
-116.798
11
310.821
21
-117.042
0
LINE
8
BLACK
6
CONTINUOUS
10
310.821
20
-117.042
11
310.632
21
-117.37
0
LINE
8
BLACK
6
CONTINUOUS
10
310.632
20
-117.37
11
310.564
21
-117.753
0
LINE
8
BLACK
6
CONTINUOUS
10
310.564
20
-117.753
11
310.495
21
-118.144
0
LINE
8
BLACK
6
CONTINUOUS
10
310.495
20
-118.144
11
310.495
21
-118.144
0
LINE
8
BLACK
6
CONTINUOUS
10
310.495
20
-118.144
11
310.492
21
-118.152
0
LINE
8
BLACK
6
CONTINUOUS
10
310.492
20
-118.152
11
310.489
21
-118.16
0
LINE
8
BLACK
6
CONTINUOUS
10
310.489
20
-118.16
11
310.489
21
-118.16
0
LINE
8
BLACK
6
CONTINUOUS
10
310.489
20
-118.16
11
310.291
21
-118.504
0
LINE
8
BLACK
6
CONTINUOUS
10
310.291
20
-118.504
11
310.28
21
-118.517
0
LINE
8
BLACK
6
CONTINUOUS
10
310.28
20
-118.517
11
310.28
21
-118.517
0
LINE
8
BLACK
6
CONTINUOUS
10
310.28
20
-118.517
11
309.976
21
-118.772
0
LINE
8
BLACK
6
CONTINUOUS
10
309.976
20
-118.772
11
309.976
21
-118.772
0
LINE
8
BLACK
6
CONTINUOUS
10
309.976
20
-118.772
11
309.971
21
-118.775
0
LINE
8
BLACK
6
CONTINUOUS
10
309.971
20
-118.775
11
309.961
21
-118.781
0
LINE
8
BLACK
6
CONTINUOUS
10
309.961
20
-118.781
11
309.961
21
-118.781
0
LINE
8
BLACK
6
CONTINUOUS
10
309.961
20
-118.781
11
309.588
21
-118.917
0
LINE
8
BLACK
6
CONTINUOUS
10
309.588
20
-118.917
11
309.581
21
-118.918
0
LINE
8
BLACK
6
CONTINUOUS
10
309.581
20
-118.918
11
309.575
21
-118.919
0
LINE
8
BLACK
6
CONTINUOUS
10
309.575
20
-118.919
11
309.379
21
-118.937
0
LINE
8
BLACK
6
CONTINUOUS
10
309.379
20
-118.937
11
309.376
21
-118.937
0
LINE
8
BLACK
6
CONTINUOUS
10
309.376
20
-118.937
11
307.585
21
-118.937
0
LINE
8
BLACK
6
CONTINUOUS
10
307.585
20
-118.937
11
307.581
21
-118.935
0
LINE
8
BLACK
6
CONTINUOUS
10
310.653
20
-109.65
11
310.991
21
-109.367
0
LINE
8
BLACK
6
CONTINUOUS
10
310.991
20
-109.367
11
310.991
21
-109.367
0
LINE
8
BLACK
6
CONTINUOUS
10
310.991
20
-109.367
11
311.006
21
-109.358
0
LINE
8
BLACK
6
CONTINUOUS
10
311.006
20
-109.358
11
311.42
21
-109.207
0
LINE
8
BLACK
6
CONTINUOUS
10
311.42
20
-109.207
11
311.427
21
-109.206
0
LINE
8
BLACK
6
CONTINUOUS
10
311.427
20
-109.206
11
311.433
21
-109.204
0
LINE
8
BLACK
6
CONTINUOUS
10
311.433
20
-109.204
11
311.608
21
-109.189
0
LINE
8
BLACK
6
CONTINUOUS
10
311.608
20
-109.189
11
311.608
21
-104.411
0
LINE
8
BLACK
6
CONTINUOUS
10
311.608
20
-104.411
11
311.595
21
-104.266
0
LINE
8
BLACK
6
CONTINUOUS
10
311.595
20
-104.266
11
311.495
21
-103.99
0
LINE
8
BLACK
6
CONTINUOUS
10
311.495
20
-103.99
11
311.308
21
-103.767
0
LINE
8
BLACK
6
CONTINUOUS
10
311.308
20
-103.767
11
311.056
21
-103.621
0
LINE
8
BLACK
6
CONTINUOUS
10
311.056
20
-103.621
11
310.76
21
-103.569
0
LINE
8
BLACK
6
CONTINUOUS
10
310.76
20
-103.569
11
310.76
21
-103.569
0
LINE
8
BLACK
6
CONTINUOUS
10
310.76
20
-103.569
11
310.5
21
-103.523
0
LINE
8
BLACK
6
CONTINUOUS
10
310.5
20
-103.523
11
310.5
21
-103.523
0
LINE
8
BLACK
6
CONTINUOUS
10
310.5
20
-103.523
11
310.49
21
-103.52
0
LINE
8
BLACK
6
CONTINUOUS
10
310.49
20
-103.52
11
310.483
21
-103.517
0
LINE
8
BLACK
6
CONTINUOUS
10
310.483
20
-103.517
11
310.483
21
-103.517
0
LINE
8
BLACK
6
CONTINUOUS
10
310.483
20
-103.517
11
310.254
21
-103.385
0
LINE
8
BLACK
6
CONTINUOUS
10
310.254
20
-103.385
11
310.254
21
-103.385
0
LINE
8
BLACK
6
CONTINUOUS
10
310.254
20
-103.385
11
310.241
21
-103.374
0
LINE
8
BLACK
6
CONTINUOUS
10
310.241
20
-103.374
11
310.071
21
-103.171
0
LINE
8
BLACK
6
CONTINUOUS
10
310.071
20
-103.171
11
310.071
21
-103.171
0
LINE
8
BLACK
6
CONTINUOUS
10
310.071
20
-103.171
11
310.062
21
-103.156
0
LINE
8
BLACK
6
CONTINUOUS
10
310.062
20
-103.156
11
309.972
21
-102.907
0
LINE
8
BLACK
6
CONTINUOUS
10
309.972
20
-102.907
11
309.97
21
-102.901
0
LINE
8
BLACK
6
CONTINUOUS
10
309.97
20
-102.901
11
309.969
21
-102.895
0
LINE
8
BLACK
6
CONTINUOUS
10
309.969
20
-102.895
11
309.957
21
-102.765
0
LINE
8
BLACK
6
CONTINUOUS
10
309.957
20
-102.765
11
309.957
21
-102.762
0
LINE
8
BLACK
6
CONTINUOUS
10
309.957
20
-102.762
11
309.957
21
-100.855
0
LINE
8
BLACK
6
CONTINUOUS
10
309.957
20
-100.855
11
309.935
21
-100.511
0
LINE
8
BLACK
6
CONTINUOUS
10
309.935
20
-100.511
11
309.774
21
-99.8698
0
LINE
8
BLACK
6
CONTINUOUS
10
309.774
20
-99.8698
11
309.466
21
-99.2872
0
LINE
8
BLACK
6
CONTINUOUS
10
309.466
20
-99.2872
11
309.027
21
-98.795
0
LINE
8
BLACK
6
CONTINUOUS
10
309.027
20
-98.795
11
308.484
21
-98.4216
0
LINE
8
BLACK
6
CONTINUOUS
10
308.484
20
-98.4216
11
307.867
21
-98.1886
0
LINE
8
BLACK
6
CONTINUOUS
10
307.867
20
-98.1886
11
307.21
21
-98.109
0
LINE
8
BLACK
6
CONTINUOUS
10
307.21
20
-98.109
11
304.295
21
-98.109
0
LINE
8
BLACK
6
CONTINUOUS
10
304.295
20
-98.109
11
303.854
21
-98.1553
0
LINE
8
BLACK
6
CONTINUOUS
10
303.854
20
-98.1553
11
303.315
21
-98.3494
0
LINE
8
BLACK
6
CONTINUOUS
10
303.315
20
-98.3494
11
302.849
21
-98.6809
0
LINE
8
BLACK
6
CONTINUOUS
10
302.849
20
-98.6809
11
302.488
21
-99.1257
0
LINE
8
BLACK
6
CONTINUOUS
10
302.488
20
-99.1257
11
302.261
21
-99.651
0
LINE
8
BLACK
6
CONTINUOUS
10
302.261
20
-99.651
11
302.183
21
-100.225
0
LINE
8
BLACK
6
CONTINUOUS
10
302.183
20
-100.225
11
302.182
21
-100.226
0
LINE
8
BLACK
6
CONTINUOUS
10
302.182
20
-100.226
11
302.182
21
-100.227
0
LINE
8
BLACK
6
CONTINUOUS
10
302.182
20
-100.227
11
302.136
21
-100.487
0
LINE
8
BLACK
6
CONTINUOUS
10
302.136
20
-100.487
11
302.136
21
-100.487
0
LINE
8
BLACK
6
CONTINUOUS
10
302.136
20
-100.487
11
302.133
21
-100.497
0
LINE
8
BLACK
6
CONTINUOUS
10
302.133
20
-100.497
11
302.13
21
-100.504
0
LINE
8
BLACK
6
CONTINUOUS
10
302.13
20
-100.504
11
302.13
21
-100.504
0
LINE
8
BLACK
6
CONTINUOUS
10
302.13
20
-100.504
11
301.998
21
-100.733
0
LINE
8
BLACK
6
CONTINUOUS
10
301.998
20
-100.733
11
301.998
21
-100.733
0
LINE
8
BLACK
6
CONTINUOUS
10
301.998
20
-100.733
11
301.987
21
-100.746
0
LINE
8
BLACK
6
CONTINUOUS
10
301.987
20
-100.746
11
301.784
21
-100.916
0
LINE
8
BLACK
6
CONTINUOUS
10
301.784
20
-100.916
11
301.784
21
-100.916
0
LINE
8
BLACK
6
CONTINUOUS
10
301.784
20
-100.916
11
301.769
21
-100.925
0
LINE
8
BLACK
6
CONTINUOUS
10
301.769
20
-100.925
11
301.52
21
-101.015
0
LINE
8
BLACK
6
CONTINUOUS
10
301.52
20
-101.015
11
301.514
21
-101.017
0
LINE
8
BLACK
6
CONTINUOUS
10
301.514
20
-101.017
11
301.508
21
-101.018
0
LINE
8
BLACK
6
CONTINUOUS
10
301.508
20
-101.018
11
301.378
21
-101.03
0
LINE
8
BLACK
6
CONTINUOUS
10
301.378
20
-101.03
11
301.375
21
-101.03
0
LINE
8
BLACK
6
CONTINUOUS
10
301.375
20
-101.03
11
196.465
21
-101.03
0
LINE
8
BLACK
6
CONTINUOUS
10
196.465
20
-101.03
11
196.46
21
-101.029
0
LINE
8
BLACK
6
CONTINUOUS
10
196.46
20
-101.029
11
196.46
21
-101.029
0
LINE
8
BLACK
6
CONTINUOUS
10
196.46
20
-101.029
11
196.2
21
-100.983
0
LINE
8
BLACK
6
CONTINUOUS
10
196.2
20
-100.983
11
196.2
21
-100.983
0
LINE
8
BLACK
6
CONTINUOUS
10
196.2
20
-100.983
11
196.19
21
-100.98
0
LINE
8
BLACK
6
CONTINUOUS
10
196.19
20
-100.98
11
196.183
21
-100.977
0
LINE
8
BLACK
6
CONTINUOUS
10
196.183
20
-100.977
11
196.183
21
-100.977
0
LINE
8
BLACK
6
CONTINUOUS
10
196.183
20
-100.977
11
195.954
21
-100.845
0
LINE
8
BLACK
6
CONTINUOUS
10
195.954
20
-100.845
11
195.954
21
-100.845
0
LINE
8
BLACK
6
CONTINUOUS
10
195.954
20
-100.845
11
195.941
21
-100.834
0
LINE
8
BLACK
6
CONTINUOUS
10
195.941
20
-100.834
11
195.771
21
-100.631
0
LINE
8
BLACK
6
CONTINUOUS
10
195.771
20
-100.631
11
195.771
21
-100.631
0
LINE
8
BLACK
6
CONTINUOUS
10
195.771
20
-100.631
11
195.762
21
-100.616
0
LINE
8
BLACK
6
CONTINUOUS
10
195.762
20
-100.616
11
195.672
21
-100.367
0
LINE
8
BLACK
6
CONTINUOUS
10
195.672
20
-100.367
11
195.67
21
-100.361
0
LINE
8
BLACK
6
CONTINUOUS
10
195.67
20
-100.361
11
195.669
21
-100.355
0
LINE
8
BLACK
6
CONTINUOUS
10
195.669
20
-100.355
11
195.657
21
-100.223
0
LINE
8
BLACK
6
CONTINUOUS
10
195.657
20
-100.223
11
195.611
21
-99.7804
0
LINE
8
BLACK
6
CONTINUOUS
10
195.611
20
-99.7804
11
195.417
21
-99.2411
0
LINE
8
BLACK
6
CONTINUOUS
10
195.417
20
-99.2411
11
195.085
21
-98.7746
0
LINE
8
BLACK
6
CONTINUOUS
10
195.085
20
-98.7746
11
194.64
21
-98.4144
0
LINE
8
BLACK
6
CONTINUOUS
10
194.64
20
-98.4144
11
194.115
21
-98.1871
0
LINE
8
BLACK
6
CONTINUOUS
10
194.115
20
-98.1871
11
193.545
21
-98.109
0
LINE
8
BLACK
6
CONTINUOUS
10
193.545
20
-98.109
11
190.629
21
-98.109
0
LINE
8
BLACK
6
CONTINUOUS
10
190.629
20
-98.109
11
190.285
21
-98.1306
0
LINE
8
BLACK
6
CONTINUOUS
10
190.285
20
-98.1306
11
189.644
21
-98.2916
0
LINE
8
BLACK
6
CONTINUOUS
10
189.644
20
-98.2916
11
189.061
21
-98.6001
0
LINE
8
BLACK
6
CONTINUOUS
10
189.061
20
-98.6001
11
188.569
21
-99.0386
0
LINE
8
BLACK
6
CONTINUOUS
10
188.569
20
-99.0386
11
188.196
21
-99.5819
0
LINE
8
BLACK
6
CONTINUOUS
10
188.196
20
-99.5819
11
187.963
21
-100.199
0
LINE
8
BLACK
6
CONTINUOUS
10
187.963
20
-100.199
11
187.883
21
-100.856
0
LINE
8
BLACK
6
CONTINUOUS
10
187.883
20
-100.856
11
187.883
21
-102.762
0
LINE
8
BLACK
6
CONTINUOUS
10
187.883
20
-102.762
11
187.882
21
-102.767
0
LINE
8
BLACK
6
CONTINUOUS
10
187.882
20
-102.767
11
187.882
21
-102.767
0
LINE
8
BLACK
6
CONTINUOUS
10
187.882
20
-102.767
11
187.836
21
-103.027
0
LINE
8
BLACK
6
CONTINUOUS
10
187.836
20
-103.027
11
187.836
21
-103.027
0
LINE
8
BLACK
6
CONTINUOUS
10
187.836
20
-103.027
11
187.833
21
-103.037
0
LINE
8
BLACK
6
CONTINUOUS
10
187.833
20
-103.037
11
187.83
21
-103.044
0
LINE
8
BLACK
6
CONTINUOUS
10
187.83
20
-103.044
11
187.83
21
-103.044
0
LINE
8
BLACK
6
CONTINUOUS
10
187.83
20
-103.044
11
187.698
21
-103.273
0
LINE
8
BLACK
6
CONTINUOUS
10
187.698
20
-103.273
11
187.698
21
-103.273
0
LINE
8
BLACK
6
CONTINUOUS
10
187.698
20
-103.273
11
187.687
21
-103.286
0
LINE
8
BLACK
6
CONTINUOUS
10
187.687
20
-103.286
11
187.484
21
-103.456
0
LINE
8
BLACK
6
CONTINUOUS
10
187.484
20
-103.456
11
187.484
21
-103.456
0
LINE
8
BLACK
6
CONTINUOUS
10
187.484
20
-103.456
11
187.469
21
-103.465
0
LINE
8
BLACK
6
CONTINUOUS
10
187.469
20
-103.465
11
187.22
21
-103.555
0
LINE
8
BLACK
6
CONTINUOUS
10
187.22
20
-103.555
11
187.214
21
-103.557
0
LINE
8
BLACK
6
CONTINUOUS
10
187.214
20
-103.557
11
187.208
21
-103.558
0
LINE
8
BLACK
6
CONTINUOUS
10
187.208
20
-103.558
11
187.075
21
-103.57
0
LINE
8
BLACK
6
CONTINUOUS
10
187.075
20
-103.57
11
186.928
21
-103.583
0
LINE
8
BLACK
6
CONTINUOUS
10
186.928
20
-103.583
11
186.652
21
-103.683
0
LINE
8
BLACK
6
CONTINUOUS
10
186.652
20
-103.683
11
186.429
21
-103.87
0
LINE
8
BLACK
6
CONTINUOUS
10
186.429
20
-103.87
11
186.283
21
-104.122
0
LINE
8
BLACK
6
CONTINUOUS
10
186.283
20
-104.122
11
186.232
21
-104.413
0
LINE
8
BLACK
6
CONTINUOUS
10
186.232
20
-104.413
11
186.232
21
-109.193
0
LINE
8
BLACK
6
CONTINUOUS
10
186.232
20
-109.193
11
186.625
21
-109.262
0
LINE
8
BLACK
6
CONTINUOUS
10
186.625
20
-109.262
11
186.625
21
-109.262
0
LINE
8
BLACK
6
CONTINUOUS
10
186.625
20
-109.262
11
186.633
21
-109.265
0
LINE
8
BLACK
6
CONTINUOUS
10
186.633
20
-109.265
11
186.641
21
-109.268
0
LINE
8
BLACK
6
CONTINUOUS
10
186.641
20
-109.268
11
186.641
21
-109.268
0
LINE
8
BLACK
6
CONTINUOUS
10
186.641
20
-109.268
11
187.023
21
-109.489
0
LINE
8
BLACK
6
CONTINUOUS
10
187.023
20
-109.489
11
187.023
21
-109.489
0
LINE
8
BLACK
6
CONTINUOUS
10
187.023
20
-109.489
11
187.03
21
-109.494
0
LINE
8
BLACK
6
CONTINUOUS
10
187.03
20
-109.494
11
187.037
21
-109.5
0
LINE
8
BLACK
6
CONTINUOUS
10
187.037
20
-109.5
11
187.037
21
-109.5
0
LINE
8
BLACK
6
CONTINUOUS
10
187.037
20
-109.5
11
187.32
21
-109.838
0
LINE
8
BLACK
6
CONTINUOUS
10
187.32
20
-109.838
11
187.32
21
-109.838
0
LINE
8
BLACK
6
CONTINUOUS
10
187.32
20
-109.838
11
187.329
21
-109.853
0
LINE
8
BLACK
6
CONTINUOUS
10
187.329
20
-109.853
11
187.48
21
-110.267
0
LINE
8
BLACK
6
CONTINUOUS
10
187.48
20
-110.267
11
187.481
21
-110.274
0
LINE
8
BLACK
6
CONTINUOUS
10
187.481
20
-110.274
11
187.483
21
-110.28
0
LINE
8
BLACK
6
CONTINUOUS
10
187.483
20
-110.28
11
187.502
21
-110.501
0
LINE
8
BLACK
6
CONTINUOUS
10
187.502
20
-110.501
11
187.501
21
-110.507
0
LINE
8
BLACK
6
CONTINUOUS
10
187.501
20
-110.507
11
187.501
21
-110.514
0
LINE
8
BLACK
6
CONTINUOUS
10
187.501
20
-110.514
11
187.425
21
-110.948
0
LINE
8
BLACK
6
CONTINUOUS
10
187.425
20
-110.948
11
187.425
21
-110.948
0
LINE
8
BLACK
6
CONTINUOUS
10
187.425
20
-110.948
11
187.421
21
-110.957
0
LINE
8
BLACK
6
CONTINUOUS
10
187.421
20
-110.957
11
187.419
21
-110.964
0
LINE
8
BLACK
6
CONTINUOUS
10
187.419
20
-110.964
11
187.419
21
-110.964
0
LINE
8
BLACK
6
CONTINUOUS
10
187.419
20
-110.964
11
187.198
21
-111.346
0
LINE
8
BLACK
6
CONTINUOUS
10
187.198
20
-111.346
11
187.187
21
-111.36
0
LINE
8
BLACK
6
CONTINUOUS
10
187.187
20
-111.36
11
187.187
21
-111.36
0
LINE
8
BLACK
6
CONTINUOUS
10
187.187
20
-111.36
11
186.849
21
-111.643
0
LINE
8
BLACK
6
CONTINUOUS
10
186.849
20
-111.643
11
186.849
21
-111.643
0
LINE
8
BLACK
6
CONTINUOUS
10
186.849
20
-111.643
11
186.834
21
-111.652
0
LINE
8
BLACK
6
CONTINUOUS
10
186.834
20
-111.652
11
186.42
21
-111.803
0
LINE
8
BLACK
6
CONTINUOUS
10
186.42
20
-111.803
11
186.413
21
-111.804
0
LINE
8
BLACK
6
CONTINUOUS
10
186.413
20
-111.804
11
186.407
21
-111.806
0
LINE
8
BLACK
6
CONTINUOUS
10
186.407
20
-111.806
11
186.232
21
-111.821
0
LINE
8
BLACK
6
CONTINUOUS
10
186.232
20
-111.821
11
186.232
21
-116.559
0
LINE
8
BLACK
6
CONTINUOUS
10
186.232
20
-116.559
11
186.582
21
-116.621
0
LINE
8
BLACK
6
CONTINUOUS
10
186.582
20
-116.621
11
186.582
21
-116.621
0
LINE
8
BLACK
6
CONTINUOUS
10
186.582
20
-116.621
11
186.59
21
-116.624
0
LINE
8
BLACK
6
CONTINUOUS
10
186.59
20
-116.624
11
186.598
21
-116.627
0
LINE
8
BLACK
6
CONTINUOUS
10
186.598
20
-116.627
11
186.598
21
-116.627
0
LINE
8
BLACK
6
CONTINUOUS
10
186.598
20
-116.627
11
186.942
21
-116.825
0
LINE
8
BLACK
6
CONTINUOUS
10
186.942
20
-116.825
11
186.942
21
-116.825
0
LINE
8
BLACK
6
CONTINUOUS
10
186.942
20
-116.825
11
186.949
21
-116.831
0
LINE
8
BLACK
6
CONTINUOUS
10
186.949
20
-116.831
11
186.955
21
-116.836
0
LINE
8
BLACK
6
CONTINUOUS
10
186.955
20
-116.836
11
186.955
21
-116.836
0
LINE
8
BLACK
6
CONTINUOUS
10
186.955
20
-116.836
11
187.21
21
-117.14
0
LINE
8
BLACK
6
CONTINUOUS
10
187.21
20
-117.14
11
187.21
21
-117.14
0
LINE
8
BLACK
6
CONTINUOUS
10
187.21
20
-117.14
11
187.219
21
-117.155
0
LINE
8
BLACK
6
CONTINUOUS
10
187.219
20
-117.155
11
187.355
21
-117.528
0
LINE
8
BLACK
6
CONTINUOUS
10
187.355
20
-117.528
11
187.356
21
-117.535
0
LINE
8
BLACK
6
CONTINUOUS
10
187.356
20
-117.535
11
187.357
21
-117.541
0
LINE
8
BLACK
6
CONTINUOUS
10
187.357
20
-117.541
11
187.375
21
-117.74
0
LINE
8
BLACK
6
CONTINUOUS
10
187.375
20
-117.74
11
187.392
21
-117.932
0
LINE
8
BLACK
6
CONTINUOUS
10
187.392
20
-117.932
11
187.522
21
-118.29
0
LINE
8
BLACK
6
CONTINUOUS
10
187.522
20
-118.29
11
187.766
21
-118.581
0
LINE
8
BLACK
6
CONTINUOUS
10
187.766
20
-118.581
11
188.094
21
-118.77
0
LINE
8
BLACK
6
CONTINUOUS
10
188.094
20
-118.77
11
188.472
21
-118.837
0
LINE
8
BLACK
6
CONTINUOUS
10
188.472
20
-118.837
11
190.196
21
-118.837
0
LINE
8
BLACK
6
CONTINUOUS
10
190.196
20
-118.837
11
190.196
21
-117.486
0
LINE
8
BLACK
6
CONTINUOUS
10
190.196
20
-117.486
11
190.197
21
-117.482
0
LINE
8
BLACK
6
CONTINUOUS
10
190.197
20
-117.482
11
190.279
21
-116.988
0
LINE
8
BLACK
6
CONTINUOUS
10
190.279
20
-116.988
11
190.281
21
-116.98
0
LINE
8
BLACK
6
CONTINUOUS
10
190.281
20
-116.98
11
190.283
21
-116.976
0
LINE
8
BLACK
6
CONTINUOUS
10
190.283
20
-116.976
11
190.284
21
-116.973
0
LINE
8
BLACK
6
CONTINUOUS
10
190.284
20
-116.973
11
190.522
21
-116.532
0
LINE
8
BLACK
6
CONTINUOUS
10
190.522
20
-116.532
11
190.522
21
-116.532
0
LINE
8
BLACK
6
CONTINUOUS
10
190.522
20
-116.532
11
190.522
21
-116.532
0
LINE
8
BLACK
6
CONTINUOUS
10
190.522
20
-116.532
11
190.527
21
-116.525
0
LINE
8
BLACK
6
CONTINUOUS
10
190.527
20
-116.525
11
190.529
21
-116.522
0
LINE
8
BLACK
6
CONTINUOUS
10
190.529
20
-116.522
11
190.532
21
-116.519
0
LINE
8
BLACK
6
CONTINUOUS
10
190.532
20
-116.519
11
190.899
21
-116.18
0
LINE
8
BLACK
6
CONTINUOUS
10
190.899
20
-116.18
11
190.906
21
-116.174
0
LINE
8
BLACK
6
CONTINUOUS
10
190.906
20
-116.174
11
190.91
21
-116.173
0
LINE
8
BLACK
6
CONTINUOUS
10
190.91
20
-116.173
11
190.913
21
-116.17
0
LINE
8
BLACK
6
CONTINUOUS
10
190.913
20
-116.17
11
191.371
21
-115.968
0
LINE
8
BLACK
6
CONTINUOUS
10
191.371
20
-115.968
11
191.379
21
-115.965
0
LINE
8
BLACK
6
CONTINUOUS
10
191.379
20
-115.965
11
191.382
21
-115.965
0
LINE
8
BLACK
6
CONTINUOUS
10
191.382
20
-115.965
11
191.385
21
-115.964
0
LINE
8
BLACK
6
CONTINUOUS
10
191.385
20
-115.964
11
191.764
21
-115.916
0
LINE
8
BLACK
6
CONTINUOUS
10
191.764
20
-115.916
11
191.772
21
-115.916
0
LINE
8
BLACK
6
CONTINUOUS
10
191.772
20
-115.916
11
191.775
21
-115.917
0
LINE
8
BLACK
6
CONTINUOUS
10
191.775
20
-115.917
11
191.778
21
-115.917
0
LINE
8
BLACK
6
CONTINUOUS
10
191.778
20
-115.917
11
192.272
21
-115.999
0
LINE
8
BLACK
6
CONTINUOUS
10
192.272
20
-115.999
11
192.28
21
-116.001
0
LINE
8
BLACK
6
CONTINUOUS
10
192.28
20
-116.001
11
192.284
21
-116.003
0
LINE
8
BLACK
6
CONTINUOUS
10
192.284
20
-116.003
11
192.287
21
-116.004
0
LINE
8
BLACK
6
CONTINUOUS
10
192.287
20
-116.004
11
192.728
21
-116.242
0
LINE
8
BLACK
6
CONTINUOUS
10
192.728
20
-116.242
11
192.728
21
-116.242
0
LINE
8
BLACK
6
CONTINUOUS
10
192.728
20
-116.242
11
192.728
21
-116.242
0
LINE
8
BLACK
6
CONTINUOUS
10
192.728
20
-116.242
11
192.735
21
-116.247
0
LINE
8
BLACK
6
CONTINUOUS
10
192.735
20
-116.247
11
192.738
21
-116.249
0
LINE
8
BLACK
6
CONTINUOUS
10
192.738
20
-116.249
11
192.741
21
-116.252
0
LINE
8
BLACK
6
CONTINUOUS
10
192.741
20
-116.252
11
193.08
21
-116.619
0
LINE
8
BLACK
6
CONTINUOUS
10
193.08
20
-116.619
11
193.086
21
-116.626
0
LINE
8
BLACK
6
CONTINUOUS
10
193.086
20
-116.626
11
193.087
21
-116.63
0
LINE
8
BLACK
6
CONTINUOUS
10
193.087
20
-116.63
11
193.089
21
-116.633
0
LINE
8
BLACK
6
CONTINUOUS
10
193.089
20
-116.633
11
193.292
21
-117.091
0
LINE
8
BLACK
6
CONTINUOUS
10
193.292
20
-117.091
11
193.295
21
-117.099
0
LINE
8
BLACK
6
CONTINUOUS
10
193.295
20
-117.099
11
193.295
21
-117.102
0
LINE
8
BLACK
6
CONTINUOUS
10
193.295
20
-117.102
11
193.296
21
-117.105
0
LINE
8
BLACK
6
CONTINUOUS
10
193.296
20
-117.105
11
193.343
21
-117.483
0
LINE
8
BLACK
6
CONTINUOUS
10
193.343
20
-117.483
11
193.344
21
-117.486
0
LINE
8
BLACK
6
CONTINUOUS
10
193.344
20
-117.486
11
193.344
21
-118.089
0
LINE
8
BLACK
6
CONTINUOUS
10
193.344
20
-118.089
11
193.42
21
-118.568
0
LINE
8
BLACK
6
CONTINUOUS
10
193.42
20
-118.568
11
193.638
21
-118.997
0
LINE
8
BLACK
6
CONTINUOUS
10
193.638
20
-118.997
11
193.978
21
-119.337
0
LINE
8
BLACK
6
CONTINUOUS
10
193.978
20
-119.337
11
194.407
21
-119.555
0
LINE
8
BLACK
6
CONTINUOUS
10
194.407
20
-119.555
11
194.885
21
-119.631
0
LINE
8
BLACK
6
CONTINUOUS
10
194.885
20
-119.631
11
302.931
21
-119.631
0
LINE
8
BLACK
6
CONTINUOUS
10
302.931
20
-119.631
11
302.944
21
-119.633
0
LINE
8
BLACK
6
CONTINUOUS
10
302.944
20
-119.633
11
302.945
21
-119.633
0
LINE
8
BLACK
6
CONTINUOUS
10
302.945
20
-119.633
11
302.951
21
-119.631
0
LINE
8
BLACK
6
CONTINUOUS
10
302.951
20
-119.631
11
303.433
21
-119.555
0
LINE
8
BLACK
6
CONTINUOUS
10
303.433
20
-119.555
11
303.862
21
-119.337
0
LINE
8
BLACK
6
CONTINUOUS
10
303.862
20
-119.337
11
304.202
21
-118.997
0
LINE
8
BLACK
6
CONTINUOUS
10
304.202
20
-118.997
11
304.42
21
-118.568
0
LINE
8
BLACK
6
CONTINUOUS
10
304.42
20
-118.568
11
304.496
21
-118.089
0
LINE
8
BLACK
6
CONTINUOUS
10
304.496
20
-118.089
11
304.496
21
-117.486
0
LINE
8
BLACK
6
CONTINUOUS
10
304.496
20
-117.486
11
304.497
21
-117.482
0
LINE
8
BLACK
6
CONTINUOUS
10
304.497
20
-117.482
11
304.579
21
-116.988
0
LINE
8
BLACK
6
CONTINUOUS
10
304.579
20
-116.988
11
304.581
21
-116.98
0
LINE
8
BLACK
6
CONTINUOUS
10
304.581
20
-116.98
11
304.583
21
-116.976
0
LINE
8
BLACK
6
CONTINUOUS
10
304.583
20
-116.976
11
304.584
21
-116.973
0
LINE
8
BLACK
6
CONTINUOUS
10
304.584
20
-116.973
11
304.822
21
-116.532
0
LINE
8
BLACK
6
CONTINUOUS
10
304.822
20
-116.532
11
304.822
21
-116.532
0
LINE
8
BLACK
6
CONTINUOUS
10
304.822
20
-116.532
11
304.822
21
-116.532
0
LINE
8
BLACK
6
CONTINUOUS
10
304.822
20
-116.532
11
304.827
21
-116.525
0
LINE
8
BLACK
6
CONTINUOUS
10
304.827
20
-116.525
11
304.829
21
-116.522
0
LINE
8
BLACK
6
CONTINUOUS
10
304.829
20
-116.522
11
304.832
21
-116.519
0
LINE
8
BLACK
6
CONTINUOUS
10
304.832
20
-116.519
11
305.199
21
-116.18
0
LINE
8
BLACK
6
CONTINUOUS
10
305.199
20
-116.18
11
305.206
21
-116.174
0
LINE
8
BLACK
6
CONTINUOUS
10
305.206
20
-116.174
11
305.21
21
-116.173
0
LINE
8
BLACK
6
CONTINUOUS
10
305.21
20
-116.173
11
305.213
21
-116.17
0
LINE
8
BLACK
6
CONTINUOUS
10
305.213
20
-116.17
11
305.671
21
-115.968
0
LINE
8
BLACK
6
CONTINUOUS
10
305.671
20
-115.968
11
305.679
21
-115.965
0
LINE
8
BLACK
6
CONTINUOUS
10
305.679
20
-115.965
11
305.682
21
-115.965
0
LINE
8
BLACK
6
CONTINUOUS
10
305.682
20
-115.965
11
305.685
21
-115.964
0
LINE
8
BLACK
6
CONTINUOUS
10
305.685
20
-115.964
11
306.064
21
-115.916
0
LINE
8
BLACK
6
CONTINUOUS
10
306.064
20
-115.916
11
306.072
21
-115.916
0
LINE
8
BLACK
6
CONTINUOUS
10
306.072
20
-115.916
11
306.075
21
-115.917
0
LINE
8
BLACK
6
CONTINUOUS
10
306.075
20
-115.917
11
306.078
21
-115.917
0
LINE
8
BLACK
6
CONTINUOUS
10
306.078
20
-115.917
11
306.572
21
-115.999
0
LINE
8
BLACK
6
CONTINUOUS
10
306.572
20
-115.999
11
306.58
21
-116.001
0
LINE
8
BLACK
6
CONTINUOUS
10
306.58
20
-116.001
11
306.584
21
-116.003
0
LINE
8
BLACK
6
CONTINUOUS
10
306.584
20
-116.003
11
306.587
21
-116.004
0
LINE
8
BLACK
6
CONTINUOUS
10
306.587
20
-116.004
11
307.028
21
-116.242
0
LINE
8
BLACK
6
CONTINUOUS
10
307.028
20
-116.242
11
307.028
21
-116.242
0
LINE
8
BLACK
6
CONTINUOUS
10
307.028
20
-116.242
11
307.028
21
-116.242
0
LINE
8
BLACK
6
CONTINUOUS
10
307.028
20
-116.242
11
307.035
21
-116.247
0
LINE
8
BLACK
6
CONTINUOUS
10
307.035
20
-116.247
11
307.038
21
-116.249
0
LINE
8
BLACK
6
CONTINUOUS
10
307.038
20
-116.249
11
307.041
21
-116.252
0
LINE
8
BLACK
6
CONTINUOUS
10
307.041
20
-116.252
11
307.38
21
-116.619
0
LINE
8
BLACK
6
CONTINUOUS
10
307.38
20
-116.619
11
307.386
21
-116.626
0
LINE
8
BLACK
6
CONTINUOUS
10
307.386
20
-116.626
11
307.387
21
-116.63
0
LINE
8
BLACK
6
CONTINUOUS
10
307.387
20
-116.63
11
307.389
21
-116.633
0
LINE
8
BLACK
6
CONTINUOUS
10
307.389
20
-116.633
11
307.592
21
-117.091
0
LINE
8
BLACK
6
CONTINUOUS
10
307.592
20
-117.091
11
307.595
21
-117.099
0
LINE
8
BLACK
6
CONTINUOUS
10
307.595
20
-117.099
11
307.595
21
-117.102
0
LINE
8
BLACK
6
CONTINUOUS
10
307.595
20
-117.102
11
307.596
21
-117.105
0
LINE
8
BLACK
6
CONTINUOUS
10
307.596
20
-117.105
11
307.643
21
-117.483
0
LINE
8
BLACK
6
CONTINUOUS
10
307.643
20
-117.483
11
307.644
21
-117.486
0
LINE
8
BLACK
6
CONTINUOUS
10
307.644
20
-117.486
11
307.644
21
-118.837
0
LINE
8
BLACK
6
CONTINUOUS
10
307.644
20
-118.837
11
309.37
21
-118.837
0
LINE
8
BLACK
6
CONTINUOUS
10
309.37
20
-118.837
11
309.56
21
-118.82
0
LINE
8
BLACK
6
CONTINUOUS
10
309.56
20
-118.82
11
309.918
21
-118.69
0
LINE
8
BLACK
6
CONTINUOUS
10
309.918
20
-118.69
11
310.209
21
-118.446
0
LINE
8
BLACK
6
CONTINUOUS
10
310.209
20
-118.446
11
310.398
21
-118.118
0
LINE
8
BLACK
6
CONTINUOUS
10
310.398
20
-118.118
11
310.466
21
-117.735
0
LINE
8
BLACK
6
CONTINUOUS
10
310.466
20
-117.735
11
310.466
21
-117.735
0
LINE
8
BLACK
6
CONTINUOUS
10
310.466
20
-117.735
11
310.535
21
-117.344
0
LINE
8
BLACK
6
CONTINUOUS
10
310.535
20
-117.344
11
310.535
21
-117.344
0
LINE
8
BLACK
6
CONTINUOUS
10
310.535
20
-117.344
11
310.538
21
-117.336
0
LINE
8
BLACK
6
CONTINUOUS
10
310.538
20
-117.336
11
310.541
21
-117.328
0
LINE
8
BLACK
6
CONTINUOUS
10
310.541
20
-117.328
11
310.541
21
-117.328
0
LINE
8
BLACK
6
CONTINUOUS
10
310.541
20
-117.328
11
310.739
21
-116.984
0
LINE
8
BLACK
6
CONTINUOUS
10
310.739
20
-116.984
11
310.739
21
-116.984
0
LINE
8
BLACK
6
CONTINUOUS
10
310.739
20
-116.984
11
310.745
21
-116.977
0
LINE
8
BLACK
6
CONTINUOUS
10
310.745
20
-116.977
11
310.75
21
-116.971
0
LINE
8
BLACK
6
CONTINUOUS
10
310.75
20
-116.971
11
310.75
21
-116.971
0
LINE
8
BLACK
6
CONTINUOUS
10
310.75
20
-116.971
11
311.054
21
-116.716
0
LINE
8
BLACK
6
CONTINUOUS
10
311.054
20
-116.716
11
311.054
21
-116.716
0
LINE
8
BLACK
6
CONTINUOUS
10
311.054
20
-116.716
11
311.069
21
-116.707
0
LINE
8
BLACK
6
CONTINUOUS
10
311.069
20
-116.707
11
311.442
21
-116.571
0
LINE
8
BLACK
6
CONTINUOUS
10
311.442
20
-116.571
11
311.449
21
-116.57
0
LINE
8
BLACK
6
CONTINUOUS
10
311.449
20
-116.57
11
311.455
21
-116.569
0
LINE
8
BLACK
6
CONTINUOUS
10
311.455
20
-116.569
11
311.608
21
-116.555
0
LINE
8
BLACK
6
CONTINUOUS
10
311.608
20
-116.555
11
311.608
21
-111.817
0
LINE
8
BLACK
6
CONTINUOUS
10
311.608
20
-111.817
11
311.215
21
-111.748
0
LINE
8
BLACK
6
CONTINUOUS
10
311.215
20
-111.748
11
311.215
21
-111.748
0
LINE
8
BLACK
6
CONTINUOUS
10
311.215
20
-111.748
11
311.206
21
-111.744
0
LINE
8
BLACK
6
CONTINUOUS
10
311.206
20
-111.744
11
311.199
21
-111.742
0
LINE
8
BLACK
6
CONTINUOUS
10
311.199
20
-111.742
11
311.199
21
-111.742
0
LINE
8
BLACK
6
CONTINUOUS
10
311.199
20
-111.742
11
310.817
21
-111.521
0
LINE
8
BLACK
6
CONTINUOUS
10
310.817
20
-111.521
11
310.803
21
-111.51
0
LINE
8
BLACK
6
CONTINUOUS
10
310.803
20
-111.51
11
310.803
21
-111.51
0
LINE
8
BLACK
6
CONTINUOUS
10
310.803
20
-111.51
11
310.52
21
-111.172
0
LINE
8
BLACK
6
CONTINUOUS
10
310.52
20
-111.172
11
310.52
21
-111.172
0
LINE
8
BLACK
6
CONTINUOUS
10
310.52
20
-111.172
11
310.511
21
-111.157
0
LINE
8
BLACK
6
CONTINUOUS
10
310.511
20
-111.157
11
310.36
21
-110.743
0
LINE
8
BLACK
6
CONTINUOUS
10
310.36
20
-110.743
11
310.359
21
-110.736
0
LINE
8
BLACK
6
CONTINUOUS
10
310.359
20
-110.736
11
310.357
21
-110.73
0
LINE
8
BLACK
6
CONTINUOUS
10
310.357
20
-110.73
11
310.338
21
-110.509
0
LINE
8
BLACK
6
CONTINUOUS
10
310.338
20
-110.509
11
310.339
21
-110.503
0
LINE
8
BLACK
6
CONTINUOUS
10
310.339
20
-110.503
11
310.339
21
-110.496
0
LINE
8
BLACK
6
CONTINUOUS
10
310.339
20
-110.496
11
310.415
21
-110.062
0
LINE
8
BLACK
6
CONTINUOUS
10
310.415
20
-110.062
11
310.415
21
-110.062
0
LINE
8
BLACK
6
CONTINUOUS
10
310.415
20
-110.062
11
310.418
21
-110.054
0
LINE
8
BLACK
6
CONTINUOUS
10
310.418
20
-110.054
11
310.421
21
-110.046
0
LINE
8
BLACK
6
CONTINUOUS
10
310.421
20
-110.046
11
310.421
21
-110.046
0
LINE
8
BLACK
6
CONTINUOUS
10
310.421
20
-110.046
11
310.642
21
-109.664
0
LINE
8
BLACK
6
CONTINUOUS
10
310.642
20
-109.664
11
310.642
21
-109.664
0
LINE
8
BLACK
6
CONTINUOUS
10
310.642
20
-109.664
11
310.653
21
-109.65
0
LINE
8
BLACK
6
CONTINUOUS
10
310.653
20
-109.65
11
310.653
21
-109.65
0
LINE
8
BLACK
6
CONTINUOUS
10
251.643
20
-104.672
11
251.885
21
-104.779
0
LINE
8
BLACK
6
CONTINUOUS
10
251.885
20
-104.779
11
252.075
21
-104.962
0
LINE
8
BLACK
6
CONTINUOUS
10
252.075
20
-104.962
11
252.191
21
-105.2
0
LINE
8
BLACK
6
CONTINUOUS
10
252.191
20
-105.2
11
252.212
21
-105.396
0
LINE
8
BLACK
6
CONTINUOUS
10
252.212
20
-105.396
11
252.163
21
-106.107
0
LINE
8
BLACK
6
CONTINUOUS
10
252.163
20
-106.107
11
252.115
21
-106.299
0
LINE
8
BLACK
6
CONTINUOUS
10
252.115
20
-106.299
11
251.968
21
-106.518
0
LINE
8
BLACK
6
CONTINUOUS
10
251.968
20
-106.518
11
251.754
21
-106.674
0
LINE
8
BLACK
6
CONTINUOUS
10
251.754
20
-106.674
11
251.5
21
-106.747
0
LINE
8
BLACK
6
CONTINUOUS
10
251.5
20
-106.747
11
251.237
21
-106.728
0
LINE
8
BLACK
6
CONTINUOUS
10
251.237
20
-106.728
11
250.995
21
-106.621
0
LINE
8
BLACK
6
CONTINUOUS
10
250.995
20
-106.621
11
250.805
21
-106.438
0
LINE
8
BLACK
6
CONTINUOUS
10
250.805
20
-106.438
11
250.689
21
-106.2
0
LINE
8
BLACK
6
CONTINUOUS
10
250.689
20
-106.2
11
250.668
21
-106.004
0
LINE
8
BLACK
6
CONTINUOUS
10
250.668
20
-106.004
11
250.717
21
-105.293
0
LINE
8
BLACK
6
CONTINUOUS
10
250.717
20
-105.293
11
250.765
21
-105.101
0
LINE
8
BLACK
6
CONTINUOUS
10
250.765
20
-105.101
11
250.912
21
-104.882
0
LINE
8
BLACK
6
CONTINUOUS
10
250.912
20
-104.882
11
251.126
21
-104.726
0
LINE
8
BLACK
6
CONTINUOUS
10
251.126
20
-104.726
11
251.38
21
-104.653
0
LINE
8
BLACK
6
CONTINUOUS
10
251.38
20
-104.653
11
251.643
21
-104.672
  0
ENDSEC
  0
EOF
